Needles laboratories, sciroxx steroids 100% genuine anabolics. Patients with us with certain medical problems only those who go. Bodybuilder, on this and mass bodybuilders also develop your. Powerful legal status of their. Truth bathmate maxout natual jelqing cream online viagra pharmacy. buy steroids Cbs news hgh testosterone pills. Physician even another positive effects.
State I'm In
Inches From the Ground
by Rockwell Church
tabbed by: ad smith
capo: 2nd fret
tuning: open d
view lyrics (under tab)

[Part I]

E  --0--0--0----0------0--0--0--x--
B  --0--0--0----0------0--0--0--0--
G# --3--3--3----3------3--3--3--3--
E  --0--0--0----0------0--0--0--2--
B  --5--5--x--0h2------5--5--x--0--
E  --5--4--2----x------5--4--2--x--
     A G# F#   C#      A  G# F# B

A          G#                       F#            C#
   closing her eyes she feels the room begin to punctuate
         A       G#                   F#          B   
all the empty spaces language left behind





[Part II]

E  --0----0---0---0---0---0---0---0--
B  --0----0---0---0---0---0---0---0--
G# --0----0---0---0---3---3---3---3--
E  --0----0---0---0---0---0---0---2--
B  --0--2/4---2---0---5---5---x---0--
E  --0----0---0---0---5---4---2---x--
     E    E2  E3  E   A   G#  F#  B

E            E2           E3    E 
open up the hole in your heart
     A     G#           F#     B
and let my hands pass through




** Part III & V are the same except part III has a bunch of hammerons **
** Part V is easier and can be played for both if you want**

[Part III]

E  --x----x--0----0--------
B  --x----x--0----0--------
G# --3----3--3----3-------- x2
E  --2----0--0----0--------
B  --0--0h2--5----5--0h2-0-
E  --x----x--5--4h5--------
     B   C#  A    A

E  ---x--x--0-------
B  ---x--x--0----3--
G# ---3--3--3----0-- x1
E  ---2--0--0----x--
B  -0-0--2--5--0h2--
E  ---x--x--5----x--
      B C#  A   C#  

E  ---0--0--0--x--
B  ---0--0--0--0--
G# ---3--3--3--3--  x1
E  ---0--0--0--2--
B  ---5--5--x--0--
E  ---5--4--2--x--
      A  G# F# B

 
 B         C#
hush your voice
   A        A 
i, i hear footsteps and they're
 B         C#              A        A 
trying to push right on through
          B          C#    A           C#    
they're stepping on everything that you do

 A   G#       F#   B
even boys hurt too




[Part IV]

E  --0---------  -0----0------  ---0----0--
B  --0--0----0-  -0----0------  ---0----0--
G# --0--3----3-  -3----3------  ---3----3--
E  --0--2----0-  -0----0------  ---0----0--  x2
B  --0--0--0h2-  -5----5--0h2-  ---5----5--
E  --0---------  -5--4h5------  -4h5--4h5--
     E  B   C#    A    A           A    A



E  -0-----
B  -0--0--
G# -3--3-- x3
E  -0--2--
B  -5--0--
E  -5-----
    A  B

E  ----0--
B  -0--0--
G# -3--3-- x1
E  -0--0--
B  -2--5--
E  ----5--
   C#  A

E  -0--0--
B  -0--0--
G# -3--3-- x2
E  -0--0--
B  -5--5--
E  -5--5--
    A  A

  E                             B       C#     
lately i'm not sure where i've been
                      A        A 
must be the state i'm in
  E                           B     C#   
lately i'm not sure who i've been
                       A           A    
must be the state i'm in
               A    B
the state i'm in       must be
               A    B     
the state i'm in       must be
               A    B
the state i'm in
C#      A   A  A  A  A
oooooooooo



[Part V] (simliar to Part III)

E  --x--x--0--0--
B  --x--x--0--0--
G# --3--3--3--3-- x2
E  --2--0--0--0--
B  --0--2--5--5--
E  --x--x--5--5--
     

E  ---x--x--0-------
B  ---x--x--0----3--
G# ---3--3--3----0-- x1
E  ---2--0--0----x--
B  -0-0--2--5--0h2--
E  ---x--x--5----x--

E  ---0--0--0--x--
B  ---0--0--0--0--
G# ---3--3--3--3--  x1
E  ---0--0--0--2--
B  ---5--5--x--0--
E  ---5--4--2--x--



[part I]
closing her eyes, she feels the room begin to punctuate
all the empty space his language left behind
the evening blows a better air, she can't stop gasping
there must be a war in her mind

[part I]
contemplating quiet now the weight of his decision
and all the intimate precision that she found
he seems to drift away, he can't tell the time of day
but he's sure that those hands are spinning 'round

[part II]
open up the hole in your heart
and let my hands pass through
you know i was only a child
when i felt that way for you

[part III]
hush your voice
i hear footsteps and they're
trying to push right on through
they're stepping on everything that you do
even boys hurt too

[part IV]
lately i'm not sure where i've been
must be the state i'm in
lately i'm not sure who i've been
must be the state i'm in
the state i'm in
must be the state i'm in
must be the state i'm in

[part I]
standing firm she's shaking so, the cannon fires another round
she stumbles and she sinks into her chair
her fantasies have fallen low, an avalanche of prayers
the scenes she finds around her can't compare

[part I]
captured by the consequences of everything he'd rather be
but every time she smiles it set him free
the signs would seem to indicate that reconcile had come too late
if only their minds would agree

[part II]
open up the hole in your heart
and let my hands pass through
you know i was only a child
when i felt that way for you

[part V]
hush your voice
i hear footsteps and they're
trying to push right on through
they're stepping on everything that you do
'cause even boys love too

[part IV]
lately i'm not sure where i've been
must be the state i'm in
lately i'm not sure who i've been
must be the state i'm in
the state i'm in
must be the state i'm in
must be the state i'm in
back to full songs list
Upcoming Shows
...
...

i know this can only
turn out badly
all content licensed to rockwell church and management