That Dress
Unreleased
by Rockwell Church
tabbed by: ad smith
capo: 4th fret
tuning: drop d
view lyrics (under tab)

  / = slide upward


into/verse/chorus

(chorus rhythm is different, chords are the same):

e-------------------
b-(3)-------(3)-----
g-(2)-2------0---2--
d--0--2--2---0---2--
a--0--0--2---x---0--
D--0-----2--/5------

   D  A  E   G   A

OR

e-------------------
b-(3)---------------
g-(2)-2-------------
d--0--2--2--5---7---
a--0--0--2--5---7---
D--0-----2-/5--/7---

   D  A  E   G   A



pre-chorus (w/ lead in from verse [the Bb]):
                      
e-------------------|---------------
b-------------------|----------(3)--
g--2--2-------------|-----------2---
d--0--2--2--5-------|-9--7--5---0---
a--0--0--2--5-------|-9--7--5---0---
D--0-----2-/5--/7-8-|-9--7--5---0---

   D  A  E  G   A Bb  B  A  G   D



D                            A
i wouldn't tell you that i never been
                  E             G   A
in touch with a feminine side


D                           A
i wouldn't tell you that i really think much about
  E                         G    A  Bb
claiming you don't have to hide

B        A               G          D
you connected with your other half baby
    B                   A          G     D   
i know i think you're getting it right

       D
cause you,
             A                  E
you can't compare, you can't compare
G         A   
it's not what you wear, 
back to full songs list
Upcoming Shows
...
...

well shucks,
i'm just a hobo dog
all content licensed to rockwell church and management