Small Poisonous Frogs
Unreleased
by Rockwell Church
tabbed by: ad smith
capo: none
tuning: standard
view lyrics (under tab)

  (12) = 12th fret harmonics
  / = slide downward toward 1st fret


intro/verse:

e--0-----------------(12)--------
B--8-----------------(12)--------
G--7----7---7--------(12)---4/---
D--9----9---9--8--7--(12)---5/---
A--7----9---9--8--7--(12)---5/---
E--0----7---7--6--5--(12)---3/---

   Em7  Bm  Bm Bb A   h     G 


Em7
woke up in my bed this morning trying to look around

    Bm              BM Bb  A   h   G
my eyes fell back into my head

Em7    
my legs are broke, my arms won't work, my spine is tied in knots

  Bm             Bm   Bb  A  h  G
i do believe my brain is dead




chorus:

e--x---0---x--------------------------
B--x---8---x--------------------------
G--5---7---5--7---7--------------4/---
D--5---9---5--9---9--8--7--------5/---
A--0---7---0--9---9--8--7--------5/---
E--5---0---5--7---7--6--5--12/---3/---

  Am  Em7 Am Bm   Bm Bb A   E    G 


Am
what could it be that makes me feel this way

Em7
have i eaten little been attacked by rabid dogs

Am
oh my my my, there's only one thing left to say

Bm        bm  Bb A    E    G        E or A<-(1st chord of verse/jam)  
i've been bit by    small poisonous frogs 



Jam:

like the chorus or just fooling w/ Am & Em7 chords
back to full songs list
Upcoming Shows
...
...

when everyone wants you,
that's the loneliest
place to be
all content licensed to rockwell church and management