My Aphrodisiac
Unreleased
by Rockwell Church
tabbed by: ad smith
capo: 4th fret
tuning: standard
view lyrics (under tab)

Basic Chords:

e --- --- --- --- --- --- ---
b -3- -3- -3- -3- -3- -3- -3-
g -0- -0- -0- -2- -0- -0- -2-
d -0- -0- -x- -0- -0- -0- -0-
a -x- -3- -2- -x- -2- -0- -0-
E -3- -x- -0- -2- -x- -x- -x-

   G   C   E   F#  B  G/A  D



Intro:

e----------------------------------------------------------
b------3-----3---3--3--3--3------3------3----3--3----3--3--
g------0-----0---0--0--2--0------0------0----0--0h2--2--0--
d----0-0-----0---0--x--0--0------0------0----0--0----0-----
a--------0h2-2h3-2--2--x--x--0h2----2h3----0-0-------0-----
E--3----------------0--2--3--------------------------------

   G         C      E  F# G    B      C     G/A      D    



part I:

e--------------------------------------------------------
b----3-3----3--3--3--3--3------3------3----3--3----3--3--
g----0-0----0--0--0--2--0------0------0----0--0h2--2--0--
d----0-0----0--0--x--0--0------0------0----0--0----0-----   X 2
a---------2h3-----2--x--x--0h2----2h3----0-0-------0-----
E--3--------------0--2--3--------------------------------

   G        C     E  F# G    B      C     G/A      D



G        C          E       F#       G    
my aphrodisiac she calls me on the phone 
               B                 C          G/A     D
she says you don't know how it feels to be alone 


G          C             E   F#     G   
barley's amber and the chesapeake meanders 
          B             C           G/A    D
and the evergreen has lost another cone 




part II:


e---------------------------------------------------
b--------3--3-----3-3-------3---3-3--3-3--3-3--3-3--
g--------0--0-----0-0-------0---2-2--0-0--2-2--0-0--
d--------0--------0---------0---0-0--0----0----x----    X 2
a----0h2------2h3------2/-0-----x----x----x----2----
E---(0)-------------------------2----3----2----0----

       B        C        G/A    F#   G    F#   E


B          C                     G/A           F#
he won't commit even though the river seems to fit him 
         G              F#            E
better than me and my sweaters ever will 

B             C          G/A                   F#  
the timings terrible i'm sure you've had your fill 
              G                      F#             E
but i just thought you'd find some comfort in this hymn





part III:

e-----------------------------
b--3--3--3-3-3--3---3-3--3-3--
g--0--2--0-0-0--0---0-0--2-2--   X 1
d--x--0--0-0-0--0---0-0--0-0--
a--2--x--x------0h2h3-2--0----
E--0--2--3--------------------

   E  F# G          C    D

e-----------------------
b--3-3-3--3---3-3--3-3--
g--0-0-0--0---0-0--2-2--
d--0-0-0--0---0-0--0-0--   X 2 (or more if wanted)
a--x------0h2h3-2--0----
E--3--------------------

   G          C    D




E   F#   G        C     D
in this hymn 
         G        C     D
in this hymn...
         G        C     D     
...
back to full songs list
Upcoming Shows
...
...

there isn't much selection,
when there isn't room
to choose
all content licensed to rockwell church and management