Madly
Unreleased
by Rockwell Church
tabbed by: ad smith
capo: none
tuning: standard
view lyrics (under tab)

intro/verse 

e------------------------------------ 
B-----3---6---5---------------------- 
G--4--2---5---4--------5-------5----- 
D--2--0---x--(0)---3---5---3---5----- 
A--0--0--(0)-(0)---3---3---3---3----- 
E------------------1-------1--------- 


bridge: 

e------------------ 
B------------------ 
G--9-------5--12--- 
D--9---5---5--10--- 
A--7---5---3------- 
E--0---3------8---- 


chorus: 

e----------------- 
B----------------- 
G------------5---- 
D---5----3---5---- 
A---5----3---3---- 
E---3----1-------- 

post-chorus 

e------------- 
B------------- 
G------------- 
D---7----10--- 
A---7----10--- 
E---5----8----
back to full songs list
Upcoming Shows
...
...

when everyone wants you,
that's the loneliest
place to be
all content licensed to rockwell church and management