Wait for Me
Inches From the Ground
by Rockwell Church
tabbed by: ad smith
capo: 1st fret
tuning: standard
view lyrics (under tab)

Chords:

   G

e---------------------------
b----3----3----3-------3----
g----0----0----0-------0----
d----0h2--0h2--0-------0----
a-----------------0h2-------
E--3------------------------

   |
   '--> let ring


   Am
e---------------------------------
b--0h1--1---3---0h1--1---3---0h1--
g--2----2---2---2----2---2---2----
d--2----2---2---2----2---2---2----
a--0----0---0---0----0---0---0----
E-----------------

    C       B       
e------------------
b---3---3---3---3--
g---0---0---0---0--
d---2---2---x---x--
a---3---3---2---2---
E-------------------
   
   D         A
e--2--3--0---x--x--
b--3--3--3---3--3--
g--2--2--2---2--2--
d--0---------2-----
a------------------
E-------------------

intro: G x4


G
talking with my shadow
       G
i was shielded by the day
           G
though i caught him by the shoelace
         G 
he still up and ran away
      Am      Am
i am older
C               
darker than a rainstorm
     B
and raining o'er your kingdom
          Am     Am
when you lost
        G         G
your throne
       D
but heaven holds her open arms
     A
for those who wait in solitude
         C             B
though lonely now you are
             Am         
you'll never be
Am            G        G
     wait for me
back to full songs list
Upcoming Shows
...
...

one touch and i am over
all content licensed to rockwell church and management