English Channel
Unreleased
by Rockwell Church
tabbed by: ad smith
capo: none
tuning: standard
view lyrics (under tab)

intro/verse

e--x----x----1----x---
B--3----3----1----3---
G--0----2----2----0---
D--0----0----3----2---
A--x----x----3----3---
E--3----2----1----x---

   G   D/F#  F    C


G                                               
don't you wonder why they didn't call it french

D/F#				   F           C  
like it's some kind of anglo invention

G 					     D/F#
you say the waters too wide well it tends to look that way

                          F                  C
when you're swimming against the tide



chorus

e--x----x----x----x---
B--3----3----3----3---
G--0----0----0----2---
D--0----x----0----0---    x 3
A--x----3----x----x---
E--3----x----3----2---

   G    C    G   D/F# 

e--1----x---
B--1----3---
G--2----0---
D--3----2---   x 1 (then back to verse)
A--3----3---
E--1----x---

   F    C



         G              C    
but i'm standing on a minute

             G              D/F# 
standing on top of the cliffs of dover

 G                C
when you ganna bring it

                  G          D/F# 
when you ganna,  hey come on over

 G        C            G           D/F#
stay awhile, it's just me and this isle

      F                            C        
it's not something you couldn't handle

                G <--[G is start of verse again] 
not like you're trying to swim the english channel
back to full songs list
Upcoming Shows
...
...

goodbye chattanooga, for the
rest of your life
all content licensed to rockwell church and management