Cowboy Song
Unreleased
by Rockwell Church
tabbed by: ad smith
capo: none
tuning: standard
view lyrics (under tab)

verse:

e---------------------------------------
b-----7-------7------------------2------
g--8--8-------8-------9\------3--3--3---   x 2
d--7------------------9\------2-----2---
a--x------------------------------------
E--7--7---7-8----8-9------0h2-----------

e------------------------------------
b-----7-------7----------------------
g--8--8-------8------9---------------
d--7-----------------9-----------14--
a--x-----------------------------14--
E--7--7---7-8----8-9----/12--12------

e---------------------------------------------------
b---2-2--4-2----------------------------------------
g---3-3--3-3------------------8h9-9--8--------------
d-----------------------------9---9--9--------------
a-------------------------------------------5/7-/9--
E---2----2------2--5/7--9--7-------------7----------

    
chorus:

e-----------------------------
b---------------------2--4----
g--9--9-----8--8---3--3--x----
d--------9--9--9---4--x--x----
a--7--7-----x--x---x--x--2--6-
E-----------7--7---2--2-------

e----------------------------------------- 
b--------------------2--4--2-------------- 
g--9--9-----8--8-----3--3--4--------------
d--------9--9--9-------------------------- 
a--7--7-----x--x-------------------------- 
E-----------7--7---2-----------2--5/7--9-- 

e---------------------------------
b---------------------------------
g--9--9-----8--8------------------
d--------9--9--9------------------
a--7--7-----x--x--------------4/6-
E-----------7--7---2--3--5/7------

e------------------------------------- 
b-------------------------------------
g--9---3---8----8h9-9--8--------------
d--9---4---9----9---9--9--------------
a--7---x---------------------5/7--9---
E------2---7--7------------7----------

e---------------------------- 
b-----7-------7---------11--- 
g--8--8-------8--------9----- 
d--7------------------x------ 
a--x-----------------9------- 
E--7--7---7-8----9-----------
back to full songs list
Upcoming Shows
...
...

you say that you may,
well i have the feeling
you might
all content licensed to rockwell church and management