Lullaby
Antidote
by Rockwell Church
tabbed by: ad smith
capo: 4th fret
tuning: drop d
view lyrics (under tab)

verse:

e--0--0----------------
b--5--0----------0--0--
g--6--6--0-------2--1--
d--7--7--0--2/4--2--2--
a--0--x--0--0----2--2--
D--7--4--0-------------

   1  2  3  4    5  6

1                             2
you never really seemed that far away
                             3       4
i could always hear you say goodnight
           5   6
in my old bedroom
1                              2
but now the poster is off the wall
                            3       4
and it's just you and them big halls
              5    6 
and all that headroom


chorus:

e------------------------------- -------------------------
b-----------------3------------- -------------------------
g-----0--2--2--2--2--------0--0- -------2-------2---2-----
d-----5--0--2--2--0--2/4---5--5- -----2-------2-----2-----
a-----5--x--0--x--0--0-----5--5- ---0-------0---------0---
D-(4h)5--4-----0--0--0---4h5--5- -4-------2-------0-------

      1  2  3  4  5  6     7  8   9       10      11

1                  2
alone in your own nest
                  3 
reaching out for rest
         4               5      6 
so i'm singing you this lullaby
 7                        8
and i know that you are beautiful
         9          10       11 
but the years have not been good to you
      9         10       11    
the years have not been good to you
back to full songs list
Upcoming Shows
...
...

i'm just not finding what i'm
asking for anymore
all content licensed to rockwell church and management