Star Over South Africa
Antidote
by Rockwell Church
tabbed by: ad smith
capo: none
tuning: standard
view lyrics (under tab)

intro/verse:

e--0---0---1---3--
b--0---5---1---3--
g--9---6---2---4--
d--9---7---3---5--
a--7---0---3---5--
E--0-------1---3---

   E   A   F   G

          E              A    
turn the page, turn the tables
 F                G 
back three or four years...



pre-chorus:

(played once between each verse and chorus)

e--0----0---------
b--0----0---------
g--2----2---------
d--2----2---------
a--0----0--2--4-4-
E-----------------

chorus:

e--0--0--0--0---
b--0--0--0--0---
g--6--6--9--4---
d--6--7--9--4---
a--4--7--7--2---
E-----5--0------

   C# A  E  B


C#             A
  she's on my back
    E               B  
so rest yourself tonight
back to full songs list
Upcoming Shows
...
...

she found some comfort
somewhere here
all content licensed to rockwell church and management