Soap and Rain
Antidote
by Rockwell Church
tabbed by: ad smith
capo: none
tuning: drop d
view lyrics (under tab)

intro/verse:

(i wanna get some meaning...)

e------------------------------------------
b------------------------------------------
g----0-0----0-0--0----0--0----0--0--0------
d----0-0----0-0--0----0--0----0--0--0------
a--0h2-2--0h3-3--3--0h3--3--0h2--2--2------
D------------------------------------------


bridge:

(here's my story...)

e---------------
b---------------
g--------0------
d--2--7--0--7---
a--2--5--3--5---
D--2--5--x--0---


chorus:

(i wanna get you number...)

e----------------
b----------------
g----------------
d--0---0--7--7---
a--x---x--5--5---
D--9--10--5--0---


post chorus:

(soap and rain, soap and rain...)

e---------------
b---------------
g--------0------
d--2--7--0--7---
a--2--5--3--5---
D--2--5--x--0---
back to full songs list
Upcoming Shows
...
...

i only wanted to get
next to you
all content licensed to rockwell church and management