Jack and Jill
Inches From the Ground
by Rockwell Church
tabbed by: ad smith
capo: none
tuning: drop d
view lyrics (under tab)

intro:

e---------------------
b---------------------
g--6/7--7--6/7--7--7--
d--0----0--0----0--0--
a--4/5--5--4/5--5--5--
D--0----0--0----0--0--


verse:

e--2----2----------
b--3----3---3---3--
g--2----2---2---2--
d--0----0---0---0--
a--0----0---0---0--
D--0--0h2---4---5--

sometimes there is a walk down
the base line to return to 
the first D chord:

D--5--4--2--0--
back to full songs list
Upcoming Shows
...
...

as much as i love you,
i can't live without
constantly bleeding
all content licensed to rockwell church and management