Ohio in a Bucket
Antidote
by Rockwell Church
tabbed by: ad smith
capo: 5th fret
tuning: drop d
view lyrics (under tab)

verse:

e-0--x--0--x--------x-------
b-3--3--1--3--3--3--1---3---
g-0--0--2--0--2--0--0---0---
d-2--0--2--0--0--0--3---0---
a-3--x--0--x--0--x--x---x---
D----5-----5--0--5--3---5---

  F  C Dm  C  G  C  Bb  C


[                            F     
you're like the smell of a perfume
             C               Dm
the way you linger when you leave the room
             C                 G           C
the way you stand out like an elephant in idaho
     Bb                C        ]
and ice cream with a spoon


choru s:

e--0--0---x--x---------------
b--1--1---1--1---3--3--3--3--
g--2--2---0--0---0--0--0--0--
d--2--2---3--3---0--0--0--0--
a--0--0---x--x---x--x--x--x--
D---------3--3---5--5--5--6--

   Dm     Bb     C        Db


e--0--0---x--x---------------
b--1--1---1--1---------------
g--2--2---0--0---3--3--3--3--
d--2--2---3--3---3--3--3--3--
a--0--0---x--x---1--1--1--1--
D---------3--3---------------

   Dm     Bb     Eb


[        Dm              Bb
it's a little bit like trying to fit
 C                 Db
ohio in a bucket, yeah 
        Dm            Bb            Eb   ]
i think i'm going to need a bigger pail


bridge:

e---------      --------
b---------      --------
g--5---5--      --5-----
d--3---2--  x7  --2--3-- x1
a--3---3--      --0--3--
D--3---x--      -----3--

   Bb  F

 Bb                  F         Bb               F
fault lines are not fixtures, they are made to quake
 Bb                F         Bb                F 
stitches are not superglue, they are made to break
Bb                F          Bb                F
i would hold you next to me until my arms are blue
      Bb   F       D      D     Bb   Bb   
but wonderful is wearing out on you
back to full songs list
Upcoming Shows
...
...

that the hardest part in all
of this is me
all content licensed to rockwell church and management