Romeo
Antidote
by Rockwell Church
tabbed by: ad smith
capo: none
tuning: drop d
view lyrics (under tab)

intro:

e----------------------
b----------------------
g--11----x----6----4---
d--12---12----7----5---
a--12---12----7----5---
D--12----9----7----5---


verse:

e---0---0---------------------------
b---0---0---------------------------
g--11---x---6---4---------------4---
d--12--12---7---5---4---3---2---5---  x2
a--12--12---7---5---4---3---2---5--- 
D--12---9---7---5---4---3---2---5---

   D    B   A   G   F#  F   E   G

D         B                  A                G 
lay your fingers through my palm beneath the table
F#         F           E       G 
feel the quiver in my hips..


bridge:

e-----------------
b--------------3--
g--------------2--
d--0---0---0---0--  x1
a--x---x---x---0--
D--9--12--14---2--

   B   D  E   D/E

B                     D 
if the sun comes up tonight
E                        D/E 
she's the easiest east i know


pre-chorus:

e----------------
b----------------
g-----4-------5--
d--5--5---9---7--  x4
a--5--5---9---7--
D-----5---9---7--

  G1  G2  B   A

G1       G2
  are we all say
B             A                   
look around, look around


chorus:
e----------------------------------
b----------------------------------
g-----------2-------4---2-------4--
d--12--12---2-------5---2-------5--
a--12--12---0-2-4-5-5---0-2-4-5-5--
D--10---9--------------------------

   C    B   A           A  

C            B
hey... hey, hey
                         A        
baby you're the biggest romeo i know
  A
know, know, know, know, know


chorus outro

e-------------------
b----------------3--
g--4--6----4--2--2--
d--5--7----5--3--0--
a--5--7----5--3--0--
D-------------------
back to full songs list
Upcoming Shows
...
...

i know this can only
turn out badly
all content licensed to rockwell church and management