Second Door
Antidote
by Rockwell Church
tabbed by: justin kaufman
capo: none
tuning: standard
view lyrics (under tab)

E---x---x----1--1---x--x--x--x--x---x---1-1-
B---x---x----1--1---6--x--x--5--x---x---1-1-
G---8---9----5--5---5--5--7--5--8---9---5-5-
D---10--10---3--3---x--5--5--5--10--10--3-3-
A---x---x----1--0---5--3--x--x--x---x---1-0-
E---8---8----x--x---x--x--3--5--8---8---x-x-
we found them tangled in...i laughed it off...wake your ass up...

E---x-x---3---0-|----x-x-3--
B---5-5---3---5-|----5-5-3--
G---5-5---5/4-5-|----5-5-4--
D---5-5---5---5-|----5-5-5--
A---3-3---x---0-|----3-3-5--
E---1-0---3---5-|----1-0-3--
i only wanted..(x2)i would not be breaking...
back to full songs list
Upcoming Shows
...
...

i've been bit by
small poisonous frogs
all content licensed to rockwell church and management