Lindsay Song
Antidote
by Rockwell Church
tabbed by: ad smith
capo: none
tuning: drop d
view lyrics (under tab)

intro/verse: 

e--0---0---0---0---(0)--
b--0---0---0---0---(0)--
g--7---7---7---7---(6)--
d--7---7---7---7---(7)--
a--5---4---x---7---(7)--
D--0---x---5---x---(x)--
   D   Db  G   E   E2

intro: [D  Db  G  E  E2] x2 

D               Db         G  
     close the door,    i want to see the light that's shining
   E                          E2      D 
through the cracks beneath us in the floor
       Db             G    
and so far,    i can see the silhouette you know
        E                      E2
we're shadows of the souls we used to be

(just play E2 right before going back to D)      


bridge:

e--0-------2---0--
b--0-------3---0--
g--1---4---2---2--
d--2---5---0---2--
a--2---5-------0--
D--x--------------
   E   G   D   A 

E                                G
say lindsay, say what's in your name           
                     D      A 
things that you're flatered by


chorus:

e---9----x---       -(0)---0----
b--10---10---       -(0)---0----
g---9----9---  x3   --6----4----  x1 
d---x----0---       --7----5----
a---0----x---       --7----5----
D---x----9---       ------------
    E    B            A    G

      E       B            E          B    
the price is high but you payed your dues
           E            B                  A              G  
and there isn't much selection when there isn't room to choose
back to full songs list
Upcoming Shows
...
...

heaven holds her open
arms for those who
wait in solitude
all content licensed to rockwell church and management