How the West Was Won
Antidote
by Rockwell Church
tabbed by: ad smith
capo: 3rd fret
tuning: drop c
view lyrics (under tab)

intro/verse:

(i guess you wrote the magna carta...)

e-----------------------------------------------
b-----------------------------------------------
g---------------0-----0----------0----0-----0---
d-------7/4-----4-----5--x-------5----4-----4---
a----5-------------------x-----3----------------
C--7---------2-----4--------0-------4----2------


old version:

** Drop D
** Capo on 3rd fret

intro/verse:

(i guess you wrote the magna carta...)

e----------------------------
B----------------------------
G----------------------------
D------7/4--4--5---5-5--5-4--
A-----------2--5---3-3--2-5--
D-5-5------------x-----------

bridge/chorus

(so tell me how the west was won...)

e--0--0--0--0--
b--5--5--5--5--
g--0--0--0--0--
d--5--5--5--5--
a--3--2--0--5--
D--------------

(she brushes by me...)

e--------------
b--5--5--5--5--
g--------------
d--5--5--5--5--
a--3--2--3--2--
D--------------

(i shoot first...)

e--0--0--0--0--
b--5--5--5--5--
g--0--0--0--0--
d--5--5--5--5--
a--3--2--x--3--
D--------1--3--
back to full songs list
Upcoming Shows
...
...

my conscious on my shoulder
and it's breathing in my ear
all content licensed to rockwell church and management