Easier on Me
Antidote
by Rockwell Church
tabbed by: justin kaufman
capo: none
tuning: standard
view lyrics (under tab)

E---6--x--------------------------------
B---6--x--------------------------------
G---8--7--------------------------------
D---8--5---6-6/5-8---6-6/5-6/5-8--------
A---6--3---6-6---8---6-6---6---8--------
E---x--x-3/4-4---6---4-4---4---6--------
     | It's three in the morning...

E---x---x-x-x-------------------
B---x---x-x-x-------------------
G---x---x-x-8-------------------
D---10--5-6-8---3-6-8-6---------
A---10--5-6-6---3-6-8-6---------
E---8---3-4-x---1-4-6-4---------
I'm mad and... |a hundred ways...


E---x-x----x----------
B---x-x----x----------
G---x-7-8--x----------
D---8-8-10-8----------
A---8-x-x--6----------
E---6-7-8--4----------
I'm only no good...

E---x-x----x-------------
B---x-x----x-------------
G---x-7-8--x-------------
D---8-8-10-13--8-8-8-----
A---8-x-x--11--6-6-8-----
E---6-7-8--9---4-3-6-----
I believe it...hardest part...

E---x--x----x-------------
B---x--x----x-------------
G---8--x------------------
D---10-8-8-----8-8-8-----
A---x--6-8-----6-6-8-----
E---8--4-6-----4-3-6-----
You could always make that...
back to full songs list
Upcoming Shows
...
...

well shucks,
i'm just a hobo dog
all content licensed to rockwell church and management