Chemical
Antidote
by Rockwell Church
tabbed by: ad smith
capo: 2nd fret
tuning: drop c
view lyrics (under tab)

intro:

e--------------------------------------------------------------------
b--------------------------------------------------------------------
g--3-3--3-3--3-3-----------------------------------------------------
d--3-3--3-3--3-3----3--x-3--3-3---7-7--7-7--7-7--7-3--3-----3--3-3---
a--1-1--0-0--1-1-0--1--x-1--1-1---5-5--5-5--5-5--5-1--1-----1--1-1---
C-------------------3--x-3--3-3---7-7--5-5--7-7--5-3--3-x-3-3--3-3---

verse:

(i'll lay it out for you...)

e---------------------------------
b---------------------------------
g--3-3--3-3--3-3------------------ x4
d--3-3--3-3--3-3----7-x-3--3-3-3--
a--1-1--0-0--1-1-0--5-x-1--1-1-1--
C-------------------7-x-3--3-3-3--


bridge

e--------------------- ----------------
b--------------------- --------------5-
g--------5---3-------- -------5---3--0-
d-----3--5---3--5--5-- ----3--5---3--5- 
a--0--1--3---1--3--3-- -0--1--3---1--3-
C--2--3-(0)-(3)-5--0-- -2--3-(0)-(3)-0-

   1  2  3   4  5  6    7  8  9  10  11


          1       2
but it's all my fault
      3                            4
for making something bound to be volatile
               5            6
shake it up, shake it up, grab it
      7       8
it's all my fault
      9                         10
for always trying to break a molecule 
                 11
instead of this habit



chorus:

(i know this isn't love...)

e-----------------------------------------------------------------
b-----------------------------------------------------------------
g--3-3--3-3--3-3--------------------------------------------------
d--3-3--3-3--3-3----3-x-3--3-3--/7-7--7-7--7-7--7--3-------5-5-5--
a--1-1--0-0--1-1-0--1-x-1--1-1---5-5--5-5--5-5--5--1-------3-3-3--
C-------------------3-x-3--3-3--/7-7--5-5--7-7--5--3-x-/5--5-5-5--
back to full songs list
Upcoming Shows
...
...

i know this can only
turn out badly
all content licensed to rockwell church and management