Kool-Aid Man
Antidote
by Rockwell Church
tabbed by: ad smith
capo: 3rd fret
tuning: drop c
view lyrics (under tab)

intro/verse (sometimes palm muted ): 

(you took the hook, i took the bait) 

e------------------------------------------------- 
b------------------------------------------------- 
g-----7--7-----0--(0)-----------------0--------0-- 
d-----5--5-----5--(4)---------4--4-4--4--2--2--2-- 
a-----5--5--x--------------2--2--2-2-----0--0--0-- 
C-7---------3-----------4------------------------- 

e-------------------------------------- 
b--5-5-5-5--5-5-5-5-------------------- 
g--0-0-0-0--0-0-0-0---0---0---0---0---- 
d--5-5-5-5--5-5-5-5---5---5---5---4---- 
a--3-3-3-3--2-2-2-2--(0)-(0)-(0)-(0)--- 
C--0-0-0-0------------2---2---2---2---- 


bridge:

(i will be, i will be...) 

e------------------- 
b------5------------ 
g--4---0---7---2---- 
d--2---5---5---0----  x2 
a--2---3---5---0---- 
C--4---0---7---2---- 


pre-chorus:

(kool-aid man... kool-aid man...) 

e------------------- 
b-----------------5-- 
g----0----0----0--0-- 
d----5----5----5--5-- x2 
a--2/3--2/3--2/3--3-- 
C--0----0----0----0-- 


chorus:  

(are you ganna let me kiss you carrie...) 

e--------------- 
b--5---5-------- 
g--0---0---0---- 
d--5---5---4---- x2 
a--3---x---0---- 
C--0---2---2---- 


post chorus:

(are ya ganna let, are ya ganna let...) 

e--------------------
b-----------------5-- 
g----0----0----0--0-- 
d----5----5----5--5-- x2 
a--2/3--2/3--2/3--3-- 
C--0----0----0----0-- 
back to full songs list
Upcoming Shows
...
...

heaven holds her open
arms for those who
wait in solitude
all content licensed to rockwell church and management