Coming Around Again
Inches From the Ground
by Rockwell Church
tabbed by: ad smith
capo: none
tuning: standard
view lyrics (under tab)

intro/verse:

e-------3--3---------x--x----
b-------3--3--3---3--3--3----
g------(0)-0--0h2-2--2--2----
d-------0--0--0---0--2--2----
a-0-0h2-2--x-(0)--0--0--0----
E----------3---------x--x----


B/G  x20033
G    3x0033
D    xx023x
A    x0223x


B/g              G  
mommy and daddy don't love no more
     D              A      
but rest your soul they still love you
B/G                       G 
he's going to spend some time away
       D                  A 
cause she can't see his conscience through

etc...


bridge:

e----------------
b----------------
g--4--2--2---0---
d--4--2--2---0---
a--2--0--x---x---
E--------4---3---
   B  A  Ab  G  

B                      A
how many times have i asked myself
      Ab                     G
do i love, do i love, do i really need love

etc...

(also can be played:
B  799xxx
A  577xxx
Ab 477xxx
G  3x00xx )


chorus:

e---------------------
b--3--3--3---3--3--3--
g--2--2--2---2--0--2--
d--0--2--0---2--0--0--
a-----0------0--2-----
E---------------------
   D  A  D   A  G  D
     

        D      A     D 
it's coming around again
        A     G      D
it's coming around again

etc...


(the 'love love love la la la" part between chorus' is the 
same as the bridge...)
back to full songs list
Upcoming Shows
...
...

you never really seemed
that far away
all content licensed to rockwell church and management