Child In Me
Superego
by Rockwell Church
tabbed by: ad smith
capo: 6th fret
tuning: open d
view lyrics (under tab)

(intro/verse):

D--(0)---------------------------
A--(0)---------------------------
F#--3-3--3-3--3-3-3-----------0--
D---4-4--2-2--4-4-2-------5-5----
A---5-5--5-5--5-5-5--2--2-2------
D---0----------------2--2-2------

    |
    ----> let 6th string ring open 



(starin right back, starin back at me):

D-------------------
A-------------------
F#--3--3---3--3--3--
D---0--0---2--2--0--
A---x--x---0--0--0--
D---5--5---x--------


(how long have you known, how long):

D--------------------------------
A--------------------------------
F#--3--3----------3--3---3--3----
D---4--4---5--5---0--0---2--2----
A---5--5---5--5---x--x---0--0----
D---0--0---2--2---5--5-----------
back to full songs list
Upcoming Shows
...
...

that which came so easy
to me, just got a little
bit harder
all content licensed to rockwell church and management