I Know You Forget Me Everyday
Superego
by Rockwell Church
tabbed by: ad smith
capo: none
tuning: drop d
view lyrics (under tab)

e-----------x---
b-----------3---
g-----9-----2---
d--3--7--2--0---
a--3--0--2--0---
D--3-(7)-2--0---
   F  A  E  D

F                A
 i really don't call you
E                 D
 i just send you video games


e--------------
b--------------
g--------------
d-7--14--2--4--
a-7--14--2--4--
D-7--14--2--4--
  A  E2  E  F#
 
 A               E2          E      F#
waiting by the phone for a family member
 A           E2           E       F#
i left you alone now you can't remember


e------------ --------------
b------------ --------------
g--7----7---- ---------7----
d--0----0---- --4--2---0----
a--5----5---- --4--2---5----
D--0----0---- --4--2---0----
   D2   D2      F# E   D2

D2            D2          F#   E   D 
i know you forget me everyday
      F#   E   D 
everyday 


e-----------------
b-----------------
g-----------------
d-----------------
a-----------------
D-----------------


high on the roller coaster holding to each other
i know that i'm supposed to be a better brother


e------------------
b--3---------------
g--2---------------
d--0---2---4---7---
a--0---2---4---5---
D--0---2---4---5---


i'm sorry... i'm sorry...
back to full songs list
Upcoming Shows
...
...

are you ganna love me
like you mean it
all content licensed to rockwell church and management