I See Alice
Superego
by Rockwell Church
tabbed by: ad smith
capo: none
tuning: standard
view lyrics (under tab)

intro:

e--2--3--3--3--1--3--
b--3--3--3--3--1--3--
g--2--0--0--0--2--4--
d--0--x--x--x--3--5--
a-----3--2--1--3--5--
E--------------1--3--

riff one:
e-----------
b--------1--
g------0----
d--3h4------
a-----------
E-----------
(goes over the F chord in intro)

verse:
e-----------------0-----3-----------------3--3--3--3--
b-----------------3--3--3-----------------3--3--3--3--
g--1-----2--1--2--2--0--0--1-----2--1--2--0--0--0--0--
d--2-----2--2--2--0--x--x--2-----2--2--2--2--x--x--2--
a--2-----0--2--0-----2--3--2-----0--2--0--3--2--1--3--
E--0--2-----0--------------0--2-----0----------------

chorus:

e-2--3--3--3--3--3--3--3--      --3----3----
b-3--3--3--3--3--3--3--3--      --3----3----
g-2--0--0--0--0--0--0--0--      --0----0----
d-0--x--x--0--x--0--x--x--  x2  --x----x----
a----2--3--2--2--x--x--2--      --1----3----
E----------3-----3--2--0--      ------------
back to full songs list
Upcoming Shows
...
...

i fall asleep to the rythym of you breathing in my ear
all content licensed to rockwell church and management