You're So Cool
Superego
by Rockwell Church
tabbed by: ad smith
capo: 1st fret
tuning: drop d
view lyrics (under tab)

verse:

e--x---0------(0)--0---x---0--(h2-p0)--
b--3---3------(0)--3---3---3-----------
g--0---2------(0)--0---0---2-----------
d--0---0---3---2---2---0---0-----------
a--x---0---3---2---3---x---0-----------
D--5---0---3---2-------5---0-----------

   G   D   F   Em  C1  G   D   



[G          D          F       Em
  i almost lost her in amsterdam
    C1        G        D      ]
she ate too much cayenne



bridge:

e----------0------
b-(1)--0---3---1--
g-(0)--0---2---0--
d--3---2---0---2--
a--3---2---0---3--
D--3---2---0------

   F   Em  D   C


 
    [F                
and when i went to wake her
           Em
she said "baby, i'll be fine
         D
if you just keep flashing
  C            ]
right before my eyes."


chorus:

e------0---0---x-------0---0-----------0---0---x---
b--3---3---0---1---3---3---0-------3---3---0---1---
g--0---2---0---0---0---2---0-------0---2---0---0---
d--0---0---2---2---0---0---2-------0---0---2---2---
a--x---0---2---3---x---0---2-------x---0---2---3---
D--5---0---2-------5---0---2---4---5---0---2-------

   G   D   Em  C   G   D   Em  F#  G   D   Em  C

e----------0--
b--1---3---3--
g--0---0---2--  x3
d--2---0---0--
a--3---x---0--
D------5---0--

   C   G   D 



[G    D         Em        C    G
     i know you know this
   D            Em     F#    G  
we've got this crazy little rule
                D               Em        C      
and i bet, i bet by now you've noticed   
        ][C   G   D   
you're so coooooool
        ][C   G   D
you're so coooooool
           [C   G   D        ]
you're so cool
back to full songs list
Upcoming Shows
...
...

it's been a heavy october,
it's been a hard fall
all content licensed to rockwell church and management