Lonely
Superego
by Rockwell Church
tabbed by: ad smith
capo: none
tuning: standard
view lyrics (under tab)

intro:

e--0------0--0--0--
b--0------0--0--0--
g--0------2--2--2--
d--2------2--4--5--
a--2------0--0--0--
E--0---------------

verse:

e--0-----3--2--0-----------------------3--2--0--- 
b--0-----3--3--0-----------------------3--3--0--- 
g--0-----0--2--2--4--2--2--2--2--2-----0--2--2--- x2 
d--2--2--0--0--2--4--2--2--2--2--2-----0--0--2--- 
a--2--x--2-----0--2--0-----0--------5--2-----0--- 
E--0--2--3--------------4-----3--2-----3--------- 

e-----3--0--
b-----3--0-- 
g-----0--2-- x1
d-----0--2--
a-----x--0-- 
e--2--3-----


chorus:

e--10--10--10-------3--    -----3--0--
b--10--10--10--10---3--    -----3--0--
g--11--11--11--11---4-- x3 -----0--2-- x2 
d--12--12--12--12---5--    -----0--2--
a--12--12--12-------5--    -----x--0--
E--10---9--10-------3--    --2--3-----
back to full songs list
Upcoming Shows
...
...

i think we've done what
we can, i think we did
what we could
all content licensed to rockwell church and management