Chandelier
Superego
by Rockwell Church
tabbed by: ad smith
capo: 3rd fret
tuning: drop d
view lyrics (under tab)

verse

e--------------------------------------
b--0--0--0--0--0------0--0--0--0--0----
g--0--0--0--0--0------0--0--0--0--0----
d--5--5--5--5--5------5--5--5--5--5----
a--x--x--2--3--5------x--x--x--3--5----
D--5--2---------------5--3--2----------
  Bb  G  D  Eb F     Bb  Ab G  Eb F       

Bb                     G           D
  i'm finding this a little ironic
      Eb         F       Bb  
in a morissette kind of way
 Ab                   G             Eb       F
yeah, professor was a pop star yeah
  


bridge:

e-------------------------
B--3---0--0---0--3--0--0--
G--0---0--0---0--0--0--0--
D--5---5--5---5--5--5--5--
A--0---x--x---2--0--3--5--
D------3--3---2-----------
   C  Ab Ab   G  c  Eb F 
  

C
 same result
         Ab 
 just a long way there

Ab          G              C    Eb  F
 go on, go on and toe the line


 chorus

e-----------------------------------
b--0--0--0--0--0------0--0--0--0----
g--0--0--0--0--0------0--0--0--0----
d--5--5--5--5--5------5--5--5--5----
a--x--x--x--3--5------x--x--3--5----
D--5--3--2------------5--2----------
  Bb Ab  G  Eb F     Bb  G  Eb F


Bb                Ab                 G       Eb    F
  you've got me swinging from your chandelier
         Bb         G        Eb         F
  right over, right over the edge up here
Bb                Ab                 G       Eb    F
  i'm probably swinging from your chandelier
         Bb         G        Eb       F     F   <-- stay on F 
  i'm over, i'm over the edge up here                at end 
back to full songs list
Upcoming Shows
...
...

there must be twenty
something reasons just to
leave this town
all content licensed to rockwell church and management