Apollo
Inches From the Ground
by Rockwell Church
tabbed by: ad smith
capo: 2nd fret
tuning: drop d
view lyrics (under tab)

Intro:

e------------------------------
b------------------------------
g--------2-------------2-------
d------4---4---------4---4-----  x2
a----4-------------0-----------
D--4----------4--0---------0---


Verse:

e---------------------------------------------------------
b---------------------------------------------------------
g--------2-------------2-----------2-2-------------4------
d------4---4---------4---4-------2-----2---------2---2----
a----4-------------0-----------0---------0-----2-------2--
D--4----------4--0---------0-----------------2------------

pre chorus:

e-----------------------------
b-----------------------------
g--------2-----2-----2--------
d------4---4-----4-----4---4--  x1
a----4-------4-----4-----4----
D--4--------------------------

chorus:

e-----------------------------------------------------
b--------5-------------3-------------3----------------
g------2---2---------2---2---------2---2-------4------
d----2-------------0-------------0-----------2---2----
a--0---------0-----------------------------2----------
D----------------5----------5--4---------2---------2--


e---------------------------------------
b---------------------------------------
g---------------------------------------
d---------------------------------------
a---------------------------------------
D---------------------------------------

e---------------------------------------
b---------------------------------------
g---------------------------------------
d---------------------------------------
a---------------------------------------
D---------------------------------------
back to full songs list
Upcoming Shows
...
...

here's my story destined to go straight to video, or tell me am i wasting precious time
all content licensed to rockwell church and management