Isn't She Everything
Warm Up the Gong
by Rockwell Church
tabbed by: ad smith
capo: none
tuning: drop d
view lyrics (under tab)

intro/verse:

(out of earshot...)

e---------------------------------
b---------------------------------
g---------------------------3--3--
d----3---3---3---3---3---3--3--3--
a----3---3---3---3---3---3--1--1--
D--3-x-3-x-2-x-2-x-1-x-1-x--x--x--


bridge:

(i believe...)

e--1------------------------
b--3------------------------
g--2--5--3--2-----------5---
d--0--5--3--2--0--0--0--5---
a-----3--1--0--x--x--x--3---
D--------------5--3--2------

 

(And do you need her...)

e-----------
b-----------
g--5--5--5--
d--3--3--5--
a--3--1--3--
D--3--------

chorus:

(isn't she everything...)

e---------------
b--3------------
g--2--3-----5---
d--0--3--3--5---  x 3
a-(0)-1--3--3---
D--------3------

e--------
b--------
g--3--3--
d--3--3--  x 1
a--1--1--
D--------

back to intro/verse
back to full songs list
Upcoming Shows
...
...

i fall asleep to the rythym of you breathing in my ear
all content licensed to rockwell church and management