She Hung the Moon
Warm Up the Gong
by Rockwell Church
tabbed by: ad smith
capo: 1st fret
tuning: drop d
view lyrics (under tab)

verse:

e--x----x----x----------------------
b--3----3----3----------------------
g--2----2----2----------------------
d--0----0----0----0--0--0--0--0--0--
a--0----x----2----x--4--5--x--4--5--
D--0----4----x----4--x--x--5--x--x--

   D  D/F#  D/B   R1(riff 1)


[D                    D/F#           
      she calls from paris 
 D/B                 R1     ]
      to see if i'm okay
[D          D/F#
      i get post cards of monuments 
 D/B             R1     ]
everywhere she stays

etc, etc...


chorus:

e---------------------
b---3----3----3----3--
g---2----0----2----2--
d---0----0----2----0--
a---x----x----0---(5)--
D---4----5----x----0--
  
   D/F#  G    A    D


     [D/F#    G
i'm reaching out
               A                D
to touch the night before it's gone
         ][D/F#           G 
before the sun begs for mercy
          A             D      ]
in the presence of the dawn

etc, etc...


bridge:

(note that the R1 chord is actually 
the entire "riff 1" from the verse)

e---0----0------------------
b---3----3---------3----3---
g---0----2---------2----2---
d---2----0----0----0----2---
a---3----0----x----0----0---
D---x----x----4---------x---
    
    C    D2   R1   D2   A


[C           D2               R1                D2   A   ]
  and once again we've got a shot at another rendition
[C           D2               R1                     D2  A   ]
  but in the end you're just assuming the same old position

*****************************************************

additional versian by chris taylor:


** Tune 1/2 step down 

Play chords with open B & E Strings 

Intro and Verse: 
E B C#m A 

Chorus: 
C#m A B E 

Bridge: 
F#m A E A B 

*****************************************************

additional version by Justin Monjure: 


She Hung The Moon 

(down ˝ step)
all chords played with open B&E strings: 

Verse:   E     Emaj7 /G#     C#m7    Emaj7/G#     A 

Chorus:  Emaj7/G#     A     B     E 

Bridge:  D     A     Emaj7/G#     A     B 
  

Here’s those two 7 chords: 

Emaj7/G#: 466400 
C#m7: x46600 


This sounds correct to me…two guitars panned hard left and right.  
One arpeggiates with the open B&E and the other revolves mostly 
around the bass strings.  That 2nd guitar does a little riff 
underneath the Emaj7/G# & A in the verse and bridge.  

The riff is mainly just: 

---------------- 
---------------- 
---------------- 
---------------- 
---6—7----6—7---
-4------5-------
back to full songs list
Upcoming Shows
...
...

there isn't much selection,
when there isn't room
to choose
all content licensed to rockwell church and management