Back On the Bus
Through the Fall
by Rockwell Church
tabbed by: ad smith
capo: 3rd fret
tuning: standard
view lyrics (under tab)

intro/verse:

e-----------------------------------
b-----------------------------------
g--5---5--x-------------4--x--4--4--   x2 
d--5---5--x-------------5--x--5--5--
a--3---3--x--3----------5--x--5--5--
E--------------0-h1-h3--3--x--3--3--

  Eb           G        Bb     Bb


chorus:
				      
e-----------------------------------------------------
b-----------------------------------------------------
g--2---0---5----5----2---0---5---5-----5-----------0--
d--3---0---5----5----3---0---5---5-----5-0h2-0-0---0--
a--3---x---3----3----3---x---3---3-----3---------0-x--
E--1---3--------5----1---3-------5-----------------3--

  Ab  Bb  Eb  Eb/C  Ab 	Bb  Eb  Eb/C   Eb         Bb5
	                                           |
               			                   '--- >let ring
 



[Eb G Bb Bb] x2		

[Eb            G      Bb            Bb    Eb G Bb Bb ]
 rod's on the radio singing about maggie
[    Eb             G              Bb            Bb      Eb G Bb Bb ]
 we aint slept for days and we're looking kinda shaggy 
         [ Ab                    Bb                      Eb        Eb/C	
 and the polotics man is on the radio talking about the president
    Ab              Bb                Eb
 i wonder if we'll make the rent or loose out 
              Eb/C           Eb 
 while we loose ourselves in us
           Bb5 ]
 hey yeah 
                       [ Eb G Bb	
 gettin' back on the bus 
          Bb             Eb G Bb
 gettin' back on the bus
          Bb           [ Eb G Bb
 gettin' back on the bus

 Eb G Bb Bb ] 
back to full songs list
Upcoming Shows
...
...

it's just i want to feel
like that, i want to
love like that
all content licensed to rockwell church and management