Stay the Same
Through the Fall
by Rockwell Church
tabbed by: chris taylor
capo: none
tuning: standard
view lyrics (under tab)

Intro & Verse: 

e------3---5---5--
b--3---3---5---5--
g--4---4---6---6--
d--4---5---7---7--
a--2---5---7---7--
E------3---5---5--
 
   Bm  G   A   A 


[Bm                    G
tell them about your fortune
 A                    A     ]
tell them about your life


Bridge: 

e------0---1---3--
b--3---3---1---0--
g--4---2---2---0--     x2
d--4---0---3---0--
a--2-------3---x--
E----------1---3--

  Bm   D   F   G 

e------0-----------3--
b--3---3---3---2---0--
g--4---2---4---2---0--    x1
d--4---0---4---2---0--
a--2-------2---0---x--
E------------------3--

   Bm  D   Bm  A   G2


[Bm  D    F         G            Bm          D
         who's the soul in the picture frame
      F        G           Bm            D
with eyes like yours but a, a different name
  Bm        A   G2      ]
intentions are unclear


Chorus: 

e--0---0---0---0--      
b--3---3---3---3--      
g--2---0---0---0--    
d--0---x---x---x--      
a--0---3---2---1--      
E-----------------     

   D  D/C G/B G/Bb 



[D              D/C                     G/B  
    what of devotion, i'm asking for answers
      G/Bb                   ][D    
these ties have all turned away
                  D/C                    G/B
it's better than money it's bigger than fame
                  G/Bb            ][ back to verse ]
it's better for all if we all stay... 
back to full songs list
Upcoming Shows
...
...

when did september
turn into this
all content licensed to rockwell church and management