Holding Out
Through the Fall
by Rockwell Church
tabbed by: ad smith
capo: 3rd fret
tuning: drop d
view lyrics (under tab)

alternate intro/verse:

e--------------------------------------------------------------- 
b--3--3---3---3---3---3--3---3--3--3---3--3--3--1---1---3------- 
g--2--2---0---0---0---0--0---2--0--0---0--0--0--0---0---0------- 
d--0--0---0---4---0---2--0---2--0--2---0--4--0--0h2-0---0------- 
a--0--0---0---5---5---0--0---x--x--x---x--0--x--3---3---x------- 
D--0--0---0---0---0---0--0---2--2--2---5--x--5----------5--2p0--


verse:
 
e--0---0---x---0---x---
b--3---3---3---1---3---
g--2---2---0---0---0---
d--0---0---0---2---0---
a--0---x---x---3---x---
D--0---2---5-------5---

   D  D2   G   C   G

[D                  D2
well i always have held the best intentions
        G
these constant interventions
          C            G          ]
were all meant to send a message
[D                   D2
it's just i want to feel, i want to feel like that
 G
love, i want to love like that
       C        G                ]
i'm probably protecting myself 


chorus:

e--x---x---0---0---   --0---x---x---x------
b--3---3---3---3---   --3---3---3---3-------
g--2---0---2---2---   --2---0---2---2-------
d--0---0---2---0---   --0---0---2---2-------
a--0---x---0---0---   --0---x---0---0------
D------5-------0---   --0---5-------------

  D3   G   A   D        D   G   A   A


[D3   G          A               D
carry on, did i tell you you're divine
        D         G               A             A     
with a holy holy holy heart i'm sinning again tonight
     ][D3         G
these faults of yours
               A         D
they're all passions of mine
          D               G                 A         A  ]
if you'd love me love me love me i'd stop spinning


**********************************************


additional version by chris taylor:
    

Tune 1 step down 

Verse and Chorus: 
G    Am7    C    F    C 

Pre-Chorus: 
G    C    G    D 
back to full songs list
Upcoming Shows
...
...

there are a few things
i remember, and they're
playing on my fears
all content licensed to rockwell church and management