Dream
Inches From the Ground
by Rockwell Church
tabbed by: chris taylor / sean morrissey
capo: none
tuning: standard
view lyrics (under tab)

Intro: 
Em - 12th fret harmonic 
Slide on E string from 7th fret down to 2nd fret 

Verse: 
Em - C - Em - C 
G  -  D - Am - C 

Chorus: 
G  -  D - Am - C 
Em - D - Am - C 
D 

****************************************************

This is how I play the solo in “dream”… it may not be 
100% perfect but it works for me.

send comments/corrections to seanpmorr420@yahoo.com

e--------------------------------------------------------
b---------------------------------------------3/5-3h5-0--
g-------------------------------------2p0-2/4------------
d-------------0h2-0h2---------5-----5--------------------
a-------0-0h2---------3-3h5/7---5/7----------------------
e-0-2-3-------------------------------------------------- 

e-------------------------------------------2---5-3-2h3--
b-3-----------3-0-------------------------3---5---------3
g---5\4p0-4-5-----5-4-2-0-----2---0-2-4-5----------------
d-------------------------2/4---4------------------------
a--------------------------------------------------------
e--------------------------------------------------------

e--------------------------------------------------------
b---------------------------------------------------3----
g-2p0-2h4p2p0-0h2-2-0---------------------------2-4---5-4
d---------------------0h2h4-5-4-2-0-2-4-2-2---2----------
a-------------------------------------------0------------
e--------------------------------------------------------

e-----------------------------------------------10-10----
b-----------------3-------------------------7-8-------8-8
g-2-0---------2-4---5-4-2-----------------7--------------
d-------2---2-------------0-5-0-4/5-5-7/9----------------
a-----2---3----------------------------------------------
e--------------------------------------------------------

e--------------10------10---10----12-----15-14-12-10-----
b-7---7-7h8h10----8h10-------------------------------12--
g-------------------------7----/9----/11-----------------
d--------------------------------------------------------
a--------------------------------------------------------
e--------------------------------------------------------

e--------------------------------------------------------
b-12/13-12-10-8-10/12-10-8-10-10/12-10-12-8------------8-
g--------------------------------------------------7-9---
d----------------------------------------------7-9-------
a-------------------------------------------10-----------
e--------------------------------------------------------



e--------------------------------------------------------
b-8/10-/12-10---15\10-8-------------------8-7------------
g-----------------------9-7---7-7/9-9-9-7-----9-7--------
d---------------------------9---------------------9-7----
a-----------------------------------------------------9-7
e--------------------------------------------------------

e--------------------------------------------------------
b---------8-7--------------------------------------------
g---9-9-7-----9-7-------------7---5----------------------
d-----------------9-7-------7---7---4/5-4-0-2---0-2------
a---------------------9-7-5-------------------4----------
e-8------------------------------------------------------

e----------------10--7-----------------------------------
b--------------8-------10-8-5----------------------------
g------------7----------------4\2p0-------------<12>-----
d--------5-7------------------------2-0-2-2-x-x-<12>-----
a----5-7--------------------------------2-2-x-x-<12>-----
e-/5------------------------------------0-0-x-x-<12>-----
back to full songs list
Upcoming Shows
...
...

you've got too much to
remember, to sit here
in your past
all content licensed to rockwell church and management