Back in Line
Through the Fall
by Rockwell Church
tabbed by: ad smith
capo: 4th fret
tuning: drop d
view lyrics (under tab)

intro/verse:

e--0----0-----0----0-----x----x--
b--2----3-----3----3-----3----3--
g--3----0-----0----0-----0----0--   x2
d--0----0---0h2--0h2-----0----0--  
a--0----2-----3----3---0h2--0h2--
D--0----x------------------------

   D   G/B    C         G/B


[D       G/B	               C        G/B  
my old girlfriend is serving coffee in seatle
          D               G/B              C         G/B   ]
to the climbers and the rhymers and the fishermen

etc, etc...


chorus: 

e---x----x----x----x----x----x----x--
b---3----3----3----3----3----3----3--
g---0----2----2----2----2----2----2--
d---0----0----0----0----0----0----2--
a---2----x----x----x----x----0----0--
E---x----x----5----4----2----0-------

   G/B   D2  D/G   D/F# D/E   D    A


[G/B                          D2
 she never would have waited tables 
           D/G   D/F#    D/E    D     A ]       
 if she'd fallen back in line          
                          [back to verse]        
 she swears she's still got time
back to full songs list
Upcoming Shows
...
...

i will survive and you'll get
what you're needing
all content licensed to rockwell church and management