Curious
Through the Fall
by Rockwell Church
tabbed by: ad smith
capo: none
tuning: drop d
view lyrics (under tab)

R1(riff 1):

e---------------------
b---------------------
g--0--0---------------
d--4--4--0-0---3-3----
a--5--5------3-----3--
D--0--0---------------

R2(riff 2):

e---------------------
b---------------------
g--0------------------
d--0--0--3-3---3-3----
a--x--x------3-----3--
D--5--5---------------


intro: R1 [x8]

verse: R1 [x4]  R2 [x2] R1 [x2]

R1
im too pessimistic yeah
R1
always wanting what the other one has 
R1                              R1              
always have to watch myself to keep out of the box
                R2          R2
keep out of the box
                 R1          R1
im a little too curious

R1
here comes jelousy
R1
there goes envy too
R1
and the weight of all these things
       R1                            R2         R2 
comes falling back, falling back on you
                   R1           R1 
it's a little myseterious


chorus:

e-----------------
b-----------------
g--7---4----------  
d--5---4---2---5--   x1
a--3---2---2---5--
D----------2---5--

   C   B   E   G
   
e-------------------------
b-------------------------
g-------------------------
d--5-------5---5---2---5--   x3
a--5-------5---5---2---5--
D--5---4---5---5---2---5--

   G   F#  G   G   E   G

e---------
b---------
g------7--
d--5---7--   x1
a--5---5--
D--5------

   G   D


[C  B      E        G     ][ G       F#
 i almost had you watching peacefully
        G    G         E      G   ][ G     F#  
 oh pandora keep your lid on tight tonight
            G     G        E
 keep you demons locked inside
    G         ][G         F#      G
 i know you're frightened by all this
     G       E     G     [G   D    ][R1]  
back to full songs list
Upcoming Shows
...
...

she says you don't know
how it feels for me to fail
all content licensed to rockwell church and management