Geneva
Through the Fall
by Rockwell Church
tabbed by: ad smith
capo: none
tuning: db (db a d g b e)
view lyrics (under tab)

intro/verse:

e-------------------------------------------------------------
b---------0-------------0-------------0-------------0---------
g-------2---2---2-----2---2---2-----2---2---2-----2---2---2---   
d-----2-------2-----2-------2-----2-------2-----2-------2-----
a---0---------------------------------------------------------
Db----------------1-------------0-------------3---------------
    A            A/D           A/Db          A/E


  A                A/D    A/Db              A/E		
 seven thousand letters, eighty thousand calls
   A            A/D                 A/Db     A/E  
 trying just to make it through the fall
        A              A/D  					
 you'd ask about the music
       A/Db           A/E
 you'd ask about the rhyme
        A            A/D            A/Db    A/E 
 you'd ask me why i never have the time



chorus:

e--------------------------------------------------------------
b---------0-------------0----------------------------0---------
g-------2---2---2-----2---2---2-------4------------2---2---2---
d-----2-------2-----2-------2-------4---4---4----2-------2-----
a---0-----------------------------4-------4--------------------
Db----------------3-------------5--------------1---------------
   A             A/E            F#            A/D


 A         A/E            F#           A/D			 
 oh, i am dreaming i am waltzing you tonight
         A                   A/E    				        
 we're twirling through the madness
      F#             A/D   
 and dipping in the night
         A              A/E					
 we'll laugh about the good things
     F#              A/D
 and cry about the way life goes



bridge:

e-------------------------------------------------------------
b---------0-------------0-------------0-------------0---------
g-------2---2---2-----2---2---2-----2---2---2-----2---2---2---   
d-----2-------2-----2-------2-----2-------2-----2-------2-----
a-------------------------------------------------------------
Db--1-------------3-------------0-------------1---------------
   A/D           A/E           A/Db          A/D


           A/D           /E        A/Db      A/D      
 life goes on and on and on, etc
 
           A/D          A/E        A/Db      A/D... 



 ending example:

e----------2/5-
b--------0-----
g------2-------
d----2---------
a--0-----------
Db-------------
back to full songs list
Upcoming Shows
...
...

i'm just not finding what i'm
asking for anymore
all content licensed to rockwell church and management