Click Your Heels
Through the Fall
by Rockwell Church
tabbed by: ad smith
capo: none
tuning: standard
view lyrics (under tab)

figure 1:

e-------1--0--3-------0--1--3--
b-------1--1--0-------1--1--0--
g-------2--0--0-------0--2--0--
d-------3--2--0-------2--3--0--
a--0h2--3--3--2--0h2--3--3--2--
E-------1-----3----------1--3--

     B  F  C  G    B  C  F  G

 figure 2: 

e-------0--1--3--2------3---3-----
b-------1--1--0--3---3--3---3-----
g-------0--2--0--2---0--x---x-----
d-------2--3--0--0---0--x---x-----
a--0h2--3--3--2------x--2---3--2--
E----------1--3------3------------

     B  C  F  G  D  G2  B  C2    

 figure 3:
				      
e--0--0--0--3--0--3--0--3--0--0/0---
b--1--1--0--0--1--0--0--0--1--1/3---
g--2--0--0--0--0--0--0--0--0--0/0---
d--2--2--2--0--2--0--2--0--2--2/4---
a--0--3--2--2--3--2--2--2--3--3/5---
E--------0--3-----3--0--3-----------

  Am  C  Em G  C  G  E  G  C  Da9 

 figure 4:

e--3--2--0--0--0--0/0---
b--0--3--0--0--1--1/3---
g--0--2--2--0--0--0/0---
d--0--0--2--2--2--2/4---
a--2-----0--2--3--3/5---
E--3--------0-----------

   G  D  A  Em C  Da9

 figure 5:

e--0--0/0--
b--1--1/3--
g--0--0/0--
d--2--2/4--
a--3--3/5--
E----------

   C    Da9



[B F C G B C F G]  x2					[fig] x 2

[B         F          C       G				[fig1]
 oh good lord do you hear my prayers			
 B        C       F      G ]
 im only full of sin
[B         F          C            G			[fig1]
 while i follow this yellow brick road			
     B        C      F         G ]
 im half the man i could have been
[B        C      F    G     D  G2  B  C2 ]              [fig2]
 half the man i could have been              		

     [B       F        C        G     			[fig1]
 the tin man says i'm too uptight 			
           B        C    F     G ]
 cause im bound to fall apart
     [B         F        C        G			[fig1]
 but im still standing straw and hay			
        B         C  F     G ]   
 cause dorothy's got my heart
[B          C  F  G  D  G2  B  C2 ]         		[fig2]
 dorothy's got my heart					

[Am   C              Em					[fig3]
 so leave me to my thoughts
               G
 shot to the middle 
               C
 shot to the middle 
          G               E
 now im thinking what im not
           G 
 he's the lucky one
           C         Da9 ]
 he's the lucky one


[G   D       A 						[fig4]
 i want what he got
        Em     C        Da9 ]
 she's only in my head
[G   D       A 						[fig4]
 i want what he got
        Em              Da9 ]
 she's only in my head
          [ G         D        A 			[fig4]
 you just click your heels and fly away
         Em      C         Da9 ][C  Da9]		[fig5]
 you're only in my head
back to full songs list
Upcoming Shows
...
...

i swear we still have time
all content licensed to rockwell church and management